ISO-10303-21;
HEADER;
/* Generated by software containing ST-Developer
 * from STEP Tools, Inc. (www.steptools.com) 
 */

FILE_DESCRIPTION(
/* description */ (''),
/* implementation_level */ '2;1');

FILE_NAME(
/* name */ 
'/Users/owen/Dropbox (OMC)/OMC/Community/Owen/Guides/Fixturing/5x4 bol
t pattern CAD+CAM.stp',
/* time_stamp */ '2015-10-12T14:17:52-07:00',
/* author */ (''),
/* organization */ (''),
/* preprocessor_version */ 'ST-DEVELOPER v16.1',
/* originating_system */ 'Autodesk Translation Framework v4.1.0.1560',
/* authorisation */ '');

FILE_SCHEMA (('AUTOMOTIVE_DESIGN { 1 0 10303 214 3 1 1 }'));
ENDSEC;

DATA;
#10=MECHANICAL_DESIGN_GEOMETRIC_PRESENTATION_REPRESENTATION('',(#16),#470);
#11=DIMENSIONAL_EXPONENTS(0.,0.,0.,0.,0.,0.,0.);
#12=(
CONVERSION_BASED_UNIT('degree',#13)
NAMED_UNIT(#11)
PLANE_ANGLE_UNIT()
);
#13=PLANE_ANGLE_MEASURE_WITH_UNIT(PLANE_ANGLE_MEASURE(0.01745329252),#472);
#14=SHAPE_REPRESENTATION_RELATIONSHIP('SRR','None',#477,#15);
#15=ADVANCED_BREP_SHAPE_REPRESENTATION('',(#17),#469);
#16=STYLED_ITEM('',(#487),#17);
#17=MANIFOLD_SOLID_BREP('Body1',#278);
#18=FACE_BOUND('',#85,.T.);
#19=FACE_BOUND('',#87,.T.);
#20=FACE_BOUND('',#89,.T.);
#21=FACE_BOUND('',#91,.T.);
#22=FACE_BOUND('',#93,.T.);
#23=FACE_BOUND('',#95,.T.);
#24=FACE_BOUND('',#97,.T.);
#25=FACE_BOUND('',#99,.T.);
#26=FACE_BOUND('',#101,.T.);
#27=FACE_BOUND('',#103,.T.);
#28=FACE_BOUND('',#105,.T.);
#29=FACE_BOUND('',#107,.T.);
#30=FACE_BOUND('',#109,.T.);
#31=FACE_BOUND('',#110,.T.);
#32=FACE_BOUND('',#111,.T.);
#33=FACE_BOUND('',#112,.T.);
#34=FACE_BOUND('',#114,.T.);
#35=FACE_BOUND('',#115,.T.);
#36=FACE_BOUND('',#116,.T.);
#37=FACE_BOUND('',#117,.T.);
#38=CIRCLE('',#285,0.425000000000001);
#39=CIRCLE('',#286,0.425000000000001);
#40=CIRCLE('',#288,0.255000000000001);
#41=CIRCLE('',#290,0.425000000000001);
#42=CIRCLE('',#291,0.425000000000001);
#43=CIRCLE('',#293,0.255000000000001);
#44=CIRCLE('',#295,0.425);
#45=CIRCLE('',#296,0.425);
#46=CIRCLE('',#298,0.255);
#47=CIRCLE('',#300,0.425);
#48=CIRCLE('',#301,0.425);
#49=CIRCLE('',#303,0.255000000000001);
#50=CIRCLE('',#305,0.255000000000001);
#51=CIRCLE('',#307,0.255);
#52=CIRCLE('',#309,0.255000000000001);
#53=CIRCLE('',#311,0.255000000000001);
#54=CYLINDRICAL_SURFACE('',#284,0.425000000000001);
#55=CYLINDRICAL_SURFACE('',#289,0.425000000000001);
#56=CYLINDRICAL_SURFACE('',#294,0.425);
#57=CYLINDRICAL_SURFACE('',#299,0.425);
#58=CYLINDRICAL_SURFACE('',#304,0.255000000000001);
#59=CYLINDRICAL_SURFACE('',#306,0.255);
#60=CYLINDRICAL_SURFACE('',#308,0.255000000000001);
#61=CYLINDRICAL_SURFACE('',#310,0.255000000000001);
#62=FACE_OUTER_BOUND('',#80,.T.);
#63=FACE_OUTER_BOUND('',#81,.T.);
#64=FACE_OUTER_BOUND('',#82,.T.);
#65=FACE_OUTER_BOUND('',#83,.T.);
#66=FACE_OUTER_BOUND('',#84,.T.);
#67=FACE_OUTER_BOUND('',#86,.T.);
#68=FACE_OUTER_BOUND('',#88,.T.);
#69=FACE_OUTER_BOUND('',#90,.T.);
#70=FACE_OUTER_BOUND('',#92,.T.);
#71=FACE_OUTER_BOUND('',#94,.T.);
#72=FACE_OUTER_BOUND('',#96,.T.);
#73=FACE_OUTER_BOUND('',#98,.T.);
#74=FACE_OUTER_BOUND('',#100,.T.);
#75=FACE_OUTER_BOUND('',#102,.T.);
#76=FACE_OUTER_BOUND('',#104,.T.);
#77=FACE_OUTER_BOUND('',#106,.T.);
#78=FACE_OUTER_BOUND('',#108,.T.);
#79=FACE_OUTER_BOUND('',#113,.T.);
#80=EDGE_LOOP('',(#194,#195,#196,#197));
#81=EDGE_LOOP('',(#198,#199,#200,#201));
#82=EDGE_LOOP('',(#202,#203,#204,#205));
#83=EDGE_LOOP('',(#206,#207,#208,#209));
#84=EDGE_LOOP('',(#210));
#85=EDGE_LOOP('',(#211));
#86=EDGE_LOOP('',(#212));
#87=EDGE_LOOP('',(#213));
#88=EDGE_LOOP('',(#214));
#89=EDGE_LOOP('',(#215));
#90=EDGE_LOOP('',(#216));
#91=EDGE_LOOP('',(#217));
#92=EDGE_LOOP('',(#218));
#93=EDGE_LOOP('',(#219));
#94=EDGE_LOOP('',(#220));
#95=EDGE_LOOP('',(#221));
#96=EDGE_LOOP('',(#222));
#97=EDGE_LOOP('',(#223));
#98=EDGE_LOOP('',(#224));
#99=EDGE_LOOP('',(#225));
#100=EDGE_LOOP('',(#226));
#101=EDGE_LOOP('',(#227));
#102=EDGE_LOOP('',(#228));
#103=EDGE_LOOP('',(#229));
#104=EDGE_LOOP('',(#230));
#105=EDGE_LOOP('',(#231));
#106=EDGE_LOOP('',(#232));
#107=EDGE_LOOP('',(#233));
#108=EDGE_LOOP('',(#234,#235,#236,#237));
#109=EDGE_LOOP('',(#238));
#110=EDGE_LOOP('',(#239));
#111=EDGE_LOOP('',(#240));
#112=EDGE_LOOP('',(#241));
#113=EDGE_LOOP('',(#242,#243,#244,#245));
#114=EDGE_LOOP('',(#246));
#115=EDGE_LOOP('',(#247));
#116=EDGE_LOOP('',(#248));
#117=EDGE_LOOP('',(#249));
#118=LINE('',#400,#130);
#119=LINE('',#402,#131);
#120=LINE('',#404,#132);
#121=LINE('',#405,#133);
#122=LINE('',#408,#134);
#123=LINE('',#410,#135);
#124=LINE('',#411,#136);
#125=LINE('',#414,#137);
#126=LINE('',#416,#138);
#127=LINE('',#417,#139);
#128=LINE('',#419,#140);
#129=LINE('',#420,#141);
#130=VECTOR('',#318,10.16);
#131=VECTOR('',#319,1.30302);
#132=VECTOR('',#320,10.16);
#133=VECTOR('',#321,1.30302);
#134=VECTOR('',#324,12.7);
#135=VECTOR('',#325,12.7);
#136=VECTOR('',#326,1.30302);
#137=VECTOR('',#329,10.16);
#138=VECTOR('',#330,10.16);
#139=VECTOR('',#331,1.30302);
#140=VECTOR('',#334,12.7);
#141=VECTOR('',#335,12.7);
#142=VERTEX_POINT('',#398);
#143=VERTEX_POINT('',#399);
#144=VERTEX_POINT('',#401);
#145=VERTEX_POINT('',#403);
#146=VERTEX_POINT('',#407);
#147=VERTEX_POINT('',#409);
#148=VERTEX_POINT('',#413);
#149=VERTEX_POINT('',#415);
#150=VERTEX_POINT('',#422);
#151=VERTEX_POINT('',#424);
#152=VERTEX_POINT('',#427);
#153=VERTEX_POINT('',#430);
#154=VERTEX_POINT('',#432);
#155=VERTEX_POINT('',#435);
#156=VERTEX_POINT('',#438);
#157=VERTEX_POINT('',#440);
#158=VERTEX_POINT('',#443);
#159=VERTEX_POINT('',#446);
#160=VERTEX_POINT('',#448);
#161=VERTEX_POINT('',#451);
#162=VERTEX_POINT('',#454);
#163=VERTEX_POINT('',#457);
#164=VERTEX_POINT('',#460);
#165=VERTEX_POINT('',#463);
#166=EDGE_CURVE('',#142,#143,#118,.T.);
#167=EDGE_CURVE('',#144,#142,#119,.T.);
#168=EDGE_CURVE('',#145,#144,#120,.T.);
#169=EDGE_CURVE('',#145,#143,#121,.T.);
#170=EDGE_CURVE('',#143,#146,#122,.T.);
#171=EDGE_CURVE('',#147,#145,#123,.T.);
#172=EDGE_CURVE('',#147,#146,#124,.T.);
#173=EDGE_CURVE('',#146,#148,#125,.T.);
#174=EDGE_CURVE('',#149,#147,#126,.T.);
#175=EDGE_CURVE('',#149,#148,#127,.T.);
#176=EDGE_CURVE('',#148,#142,#128,.T.);
#177=EDGE_CURVE('',#144,#149,#129,.T.);
#178=EDGE_CURVE('',#150,#150,#38,.T.);
#179=EDGE_CURVE('',#151,#151,#39,.T.);
#180=EDGE_CURVE('',#152,#152,#40,.T.);
#181=EDGE_CURVE('',#153,#153,#41,.T.);
#182=EDGE_CURVE('',#154,#154,#42,.T.);
#183=EDGE_CURVE('',#155,#155,#43,.T.);
#184=EDGE_CURVE('',#156,#156,#44,.T.);
#185=EDGE_CURVE('',#157,#157,#45,.T.);
#186=EDGE_CURVE('',#158,#158,#46,.T.);
#187=EDGE_CURVE('',#159,#159,#47,.T.);
#188=EDGE_CURVE('',#160,#160,#48,.T.);
#189=EDGE_CURVE('',#161,#161,#49,.T.);
#190=EDGE_CURVE('',#162,#162,#50,.T.);
#191=EDGE_CURVE('',#163,#163,#51,.T.);
#192=EDGE_CURVE('',#164,#164,#52,.T.);
#193=EDGE_CURVE('',#165,#165,#53,.T.);
#194=ORIENTED_EDGE('',*,*,#166,.F.);
#195=ORIENTED_EDGE('',*,*,#167,.F.);
#196=ORIENTED_EDGE('',*,*,#168,.F.);
#197=ORIENTED_EDGE('',*,*,#169,.T.);
#198=ORIENTED_EDGE('',*,*,#170,.F.);
#199=ORIENTED_EDGE('',*,*,#169,.F.);
#200=ORIENTED_EDGE('',*,*,#171,.F.);
#201=ORIENTED_EDGE('',*,*,#172,.T.);
#202=ORIENTED_EDGE('',*,*,#173,.F.);
#203=ORIENTED_EDGE('',*,*,#172,.F.);
#204=ORIENTED_EDGE('',*,*,#174,.F.);
#205=ORIENTED_EDGE('',*,*,#175,.T.);
#206=ORIENTED_EDGE('',*,*,#176,.F.);
#207=ORIENTED_EDGE('',*,*,#175,.F.);
#208=ORIENTED_EDGE('',*,*,#177,.F.);
#209=ORIENTED_EDGE('',*,*,#167,.T.);
#210=ORIENTED_EDGE('',*,*,#178,.T.);
#211=ORIENTED_EDGE('',*,*,#179,.F.);
#212=ORIENTED_EDGE('',*,*,#178,.F.);
#213=ORIENTED_EDGE('',*,*,#180,.F.);
#214=ORIENTED_EDGE('',*,*,#181,.T.);
#215=ORIENTED_EDGE('',*,*,#182,.F.);
#216=ORIENTED_EDGE('',*,*,#181,.F.);
#217=ORIENTED_EDGE('',*,*,#183,.F.);
#218=ORIENTED_EDGE('',*,*,#184,.T.);
#219=ORIENTED_EDGE('',*,*,#185,.F.);
#220=ORIENTED_EDGE('',*,*,#184,.F.);
#221=ORIENTED_EDGE('',*,*,#186,.F.);
#222=ORIENTED_EDGE('',*,*,#187,.T.);
#223=ORIENTED_EDGE('',*,*,#188,.F.);
#224=ORIENTED_EDGE('',*,*,#187,.F.);
#225=ORIENTED_EDGE('',*,*,#189,.F.);
#226=ORIENTED_EDGE('',*,*,#183,.T.);
#227=ORIENTED_EDGE('',*,*,#190,.F.);
#228=ORIENTED_EDGE('',*,*,#186,.T.);
#229=ORIENTED_EDGE('',*,*,#191,.F.);
#230=ORIENTED_EDGE('',*,*,#180,.T.);
#231=ORIENTED_EDGE('',*,*,#192,.F.);
#232=ORIENTED_EDGE('',*,*,#189,.T.);
#233=ORIENTED_EDGE('',*,*,#193,.F.);
#234=ORIENTED_EDGE('',*,*,#174,.T.);
#235=ORIENTED_EDGE('',*,*,#171,.T.);
#236=ORIENTED_EDGE('',*,*,#168,.T.);
#237=ORIENTED_EDGE('',*,*,#177,.T.);
#238=ORIENTED_EDGE('',*,*,#179,.T.);
#239=ORIENTED_EDGE('',*,*,#182,.T.);
#240=ORIENTED_EDGE('',*,*,#185,.T.);
#241=ORIENTED_EDGE('',*,*,#188,.T.);
#242=ORIENTED_EDGE('',*,*,#173,.T.);
#243=ORIENTED_EDGE('',*,*,#176,.T.);
#244=ORIENTED_EDGE('',*,*,#166,.T.);
#245=ORIENTED_EDGE('',*,*,#170,.T.);
#246=ORIENTED_EDGE('',*,*,#190,.T.);
#247=ORIENTED_EDGE('',*,*,#191,.T.);
#248=ORIENTED_EDGE('',*,*,#192,.T.);
#249=ORIENTED_EDGE('',*,*,#193,.T.);
#250=PLANE('',#280);
#251=PLANE('',#281);
#252=PLANE('',#282);
#253=PLANE('',#283);
#254=PLANE('',#287);
#255=PLANE('',#292);
#256=PLANE('',#297);
#257=PLANE('',#302);
#258=PLANE('',#312);
#259=PLANE('',#313);
#260=ADVANCED_FACE('',(#62),#250,.F.);
#261=ADVANCED_FACE('',(#63),#251,.F.);
#262=ADVANCED_FACE('',(#64),#252,.F.);
#263=ADVANCED_FACE('',(#65),#253,.F.);
#264=ADVANCED_FACE('',(#66,#18),#54,.F.);
#265=ADVANCED_FACE('',(#67,#19),#254,.T.);
#266=ADVANCED_FACE('',(#68,#20),#55,.F.);
#267=ADVANCED_FACE('',(#69,#21),#255,.T.);
#268=ADVANCED_FACE('',(#70,#22),#56,.F.);
#269=ADVANCED_FACE('',(#71,#23),#256,.T.);
#270=ADVANCED_FACE('',(#72,#24),#57,.F.);
#271=ADVANCED_FACE('',(#73,#25),#257,.T.);
#272=ADVANCED_FACE('',(#74,#26),#58,.F.);
#273=ADVANCED_FACE('',(#75,#27),#59,.F.);
#274=ADVANCED_FACE('',(#76,#28),#60,.F.);
#275=ADVANCED_FACE('',(#77,#29),#61,.F.);
#276=ADVANCED_FACE('',(#78,#30,#31,#32,#33),#258,.T.);
#277=ADVANCED_FACE('',(#79,#34,#35,#36,#37),#259,.F.);
#278=CLOSED_SHELL('',(#260,#261,#262,#263,#264,#265,#266,#267,#268,#269,
#270,#271,#272,#273,#274,#275,#276,#277));
#279=AXIS2_PLACEMENT_3D('placement',#396,#314,#315);
#280=AXIS2_PLACEMENT_3D('',#397,#316,#317);
#281=AXIS2_PLACEMENT_3D('',#406,#322,#323);
#282=AXIS2_PLACEMENT_3D('',#412,#327,#328);
#283=AXIS2_PLACEMENT_3D('',#418,#332,#333);
#284=AXIS2_PLACEMENT_3D('',#421,#336,#337);
#285=AXIS2_PLACEMENT_3D('',#423,#338,#339);
#286=AXIS2_PLACEMENT_3D('',#425,#340,#341);
#287=AXIS2_PLACEMENT_3D('',#426,#342,#343);
#288=AXIS2_PLACEMENT_3D('',#428,#344,#345);
#289=AXIS2_PLACEMENT_3D('',#429,#346,#347);
#290=AXIS2_PLACEMENT_3D('',#431,#348,#349);
#291=AXIS2_PLACEMENT_3D('',#433,#350,#351);
#292=AXIS2_PLACEMENT_3D('',#434,#352,#353);
#293=AXIS2_PLACEMENT_3D('',#436,#354,#355);
#294=AXIS2_PLACEMENT_3D('',#437,#356,#357);
#295=AXIS2_PLACEMENT_3D('',#439,#358,#359);
#296=AXIS2_PLACEMENT_3D('',#441,#360,#361);
#297=AXIS2_PLACEMENT_3D('',#442,#362,#363);
#298=AXIS2_PLACEMENT_3D('',#444,#364,#365);
#299=AXIS2_PLACEMENT_3D('',#445,#366,#367);
#300=AXIS2_PLACEMENT_3D('',#447,#368,#369);
#301=AXIS2_PLACEMENT_3D('',#449,#370,#371);
#302=AXIS2_PLACEMENT_3D('',#450,#372,#373);
#303=AXIS2_PLACEMENT_3D('',#452,#374,#375);
#304=AXIS2_PLACEMENT_3D('',#453,#376,#377);
#305=AXIS2_PLACEMENT_3D('',#455,#378,#379);
#306=AXIS2_PLACEMENT_3D('',#456,#380,#381);
#307=AXIS2_PLACEMENT_3D('',#458,#382,#383);
#308=AXIS2_PLACEMENT_3D('',#459,#384,#385);
#309=AXIS2_PLACEMENT_3D('',#461,#386,#387);
#310=AXIS2_PLACEMENT_3D('',#462,#388,#389);
#311=AXIS2_PLACEMENT_3D('',#464,#390,#391);
#312=AXIS2_PLACEMENT_3D('',#465,#392,#393);
#313=AXIS2_PLACEMENT_3D('',#466,#394,#395);
#314=DIRECTION('axis',(0.,0.,1.));
#315=DIRECTION('refdir',(1.,0.,0.));
#316=DIRECTION('center_axis',(1.,-4.15240895036968E-16,0.));
#317=DIRECTION('ref_axis',(-4.44089209850063E-16,-1.,0.));
#318=DIRECTION('',(4.15240895036968E-16,1.,0.));
#319=DIRECTION('',(0.,0.,-1.));
#320=DIRECTION('',(-4.15240895036968E-16,-1.,0.));
#321=DIRECTION('',(0.,0.,-1.));
#322=DIRECTION('center_axis',(0.,-1.,0.));
#323=DIRECTION('ref_axis',(-1.,0.,0.));
#324=DIRECTION('',(1.,0.,0.));
#325=DIRECTION('',(-1.,0.,0.));
#326=DIRECTION('',(0.,0.,-1.));
#327=DIRECTION('center_axis',(-1.,5.24514814783538E-16,0.));
#328=DIRECTION('ref_axis',(0.,1.,0.));
#329=DIRECTION('',(-5.24514814783538E-16,-1.,0.));
#330=DIRECTION('',(5.24514814783538E-16,1.,0.));
#331=DIRECTION('',(0.,0.,-1.));
#332=DIRECTION('center_axis',(6.06470254593466E-17,1.,0.));
#333=DIRECTION('ref_axis',(1.,-6.24500451351651E-17,0.));
#334=DIRECTION('',(-1.,6.06470254593466E-17,0.));
#335=DIRECTION('',(1.,-6.06470254593466E-17,0.));
#336=DIRECTION('center_axis',(0.,0.,-1.));
#337=DIRECTION('ref_axis',(1.,0.,0.));
#338=DIRECTION('center_axis',(0.,0.,-1.));
#339=DIRECTION('ref_axis',(1.,0.,0.));
#340=DIRECTION('center_axis',(0.,0.,-1.));
#341=DIRECTION('ref_axis',(1.,0.,0.));
#342=DIRECTION('center_axis',(0.,0.,1.));
#343=DIRECTION('ref_axis',(1.,0.,0.));
#344=DIRECTION('center_axis',(0.,0.,1.));
#345=DIRECTION('ref_axis',(1.,0.,0.));
#346=DIRECTION('center_axis',(0.,0.,-1.));
#347=DIRECTION('ref_axis',(1.,0.,0.));
#348=DIRECTION('center_axis',(0.,0.,-1.));
#349=DIRECTION('ref_axis',(1.,0.,0.));
#350=DIRECTION('center_axis',(0.,0.,-1.));
#351=DIRECTION('ref_axis',(1.,0.,0.));
#352=DIRECTION('center_axis',(0.,0.,1.));
#353=DIRECTION('ref_axis',(1.,0.,0.));
#354=DIRECTION('center_axis',(0.,0.,1.));
#355=DIRECTION('ref_axis',(1.,0.,0.));
#356=DIRECTION('center_axis',(0.,0.,-1.));
#357=DIRECTION('ref_axis',(1.,0.,0.));
#358=DIRECTION('center_axis',(0.,0.,-1.));
#359=DIRECTION('ref_axis',(1.,0.,0.));
#360=DIRECTION('center_axis',(0.,0.,-1.));
#361=DIRECTION('ref_axis',(1.,0.,0.));
#362=DIRECTION('center_axis',(0.,0.,1.));
#363=DIRECTION('ref_axis',(1.,0.,0.));
#364=DIRECTION('center_axis',(0.,0.,1.));
#365=DIRECTION('ref_axis',(1.,0.,0.));
#366=DIRECTION('center_axis',(0.,0.,-1.));
#367=DIRECTION('ref_axis',(1.,0.,0.));
#368=DIRECTION('center_axis',(0.,0.,-1.));
#369=DIRECTION('ref_axis',(1.,0.,0.));
#370=DIRECTION('center_axis',(0.,0.,-1.));
#371=DIRECTION('ref_axis',(1.,0.,0.));
#372=DIRECTION('center_axis',(0.,0.,1.));
#373=DIRECTION('ref_axis',(1.,0.,0.));
#374=DIRECTION('center_axis',(0.,0.,1.));
#375=DIRECTION('ref_axis',(1.,0.,0.));
#376=DIRECTION('center_axis',(0.,0.,-1.));
#377=DIRECTION('ref_axis',(1.,0.,0.));
#378=DIRECTION('center_axis',(0.,0.,1.));
#379=DIRECTION('ref_axis',(1.,0.,0.));
#380=DIRECTION('center_axis',(0.,0.,-1.));
#381=DIRECTION('ref_axis',(1.,0.,0.));
#382=DIRECTION('center_axis',(0.,0.,1.));
#383=DIRECTION('ref_axis',(1.,0.,0.));
#384=DIRECTION('center_axis',(0.,0.,-1.));
#385=DIRECTION('ref_axis',(1.,0.,0.));
#386=DIRECTION('center_axis',(0.,0.,1.));
#387=DIRECTION('ref_axis',(1.,0.,0.));
#388=DIRECTION('center_axis',(0.,0.,-1.));
#389=DIRECTION('ref_axis',(1.,0.,0.));
#390=DIRECTION('center_axis',(0.,0.,1.));
#391=DIRECTION('ref_axis',(1.,0.,0.));
#392=DIRECTION('center_axis',(0.,0.,1.));
#393=DIRECTION('ref_axis',(0.,1.,0.));
#394=DIRECTION('center_axis',(0.,0.,1.));
#395=DIRECTION('ref_axis',(0.,1.,0.));
#396=CARTESIAN_POINT('',(0.,0.,0.));
#397=CARTESIAN_POINT('Origin',(1.27,10.1981,1.30302));
#398=CARTESIAN_POINT('',(1.26999999999999,0.0380999999999989,0.));
#399=CARTESIAN_POINT('',(1.27,10.1981,0.));
#400=CARTESIAN_POINT('',(1.27,7.6581,0.));
#401=CARTESIAN_POINT('',(1.26999999999999,0.0380999999999989,1.30302));
#402=CARTESIAN_POINT('',(1.26999999999999,0.0380999999999989,1.30302));
#403=CARTESIAN_POINT('',(1.27,10.1981,1.30302));
#404=CARTESIAN_POINT('',(1.27,7.6581,1.30302));
#405=CARTESIAN_POINT('',(1.27,10.1981,1.30302));
#406=CARTESIAN_POINT('Origin',(13.97,10.1981,1.30302));
#407=CARTESIAN_POINT('',(13.97,10.1981,0.));
#408=CARTESIAN_POINT('',(10.795,10.1981,0.));
#409=CARTESIAN_POINT('',(13.97,10.1981,1.30302));
#410=CARTESIAN_POINT('',(10.795,10.1981,1.30302));
#411=CARTESIAN_POINT('',(13.97,10.1981,1.30302));
#412=CARTESIAN_POINT('Origin',(13.97,0.0380999999999982,1.30302));
#413=CARTESIAN_POINT('',(13.97,0.0380999999999982,0.));
#414=CARTESIAN_POINT('',(13.97,2.5781,0.));
#415=CARTESIAN_POINT('',(13.97,0.0380999999999982,1.30302));
#416=CARTESIAN_POINT('',(13.97,2.5781,1.30302));
#417=CARTESIAN_POINT('',(13.97,0.0380999999999982,1.30302));
#418=CARTESIAN_POINT('Origin',(1.26999999999999,0.0380999999999989,1.30302));
#419=CARTESIAN_POINT('',(4.445,0.0380999999999991,0.));
#420=CARTESIAN_POINT('',(4.445,0.0380999999999991,1.30302));
#421=CARTESIAN_POINT('Origin',(13.41,2.8181,1.30302));
#422=CARTESIAN_POINT('',(12.985,2.8181,0.75302));
#423=CARTESIAN_POINT('Origin',(13.41,2.8181,0.75302));
#424=CARTESIAN_POINT('',(12.985,2.8181,1.30302));
#425=CARTESIAN_POINT('Origin',(13.41,2.8181,1.30302));
#426=CARTESIAN_POINT('Origin',(13.41,2.8181,0.75302));
#427=CARTESIAN_POINT('',(13.155,2.8181,0.75302));
#428=CARTESIAN_POINT('Origin',(13.41,2.8181,0.75302));
#429=CARTESIAN_POINT('Origin',(13.41,8.8181,1.30302));
#430=CARTESIAN_POINT('',(12.985,8.8181,0.75302));
#431=CARTESIAN_POINT('Origin',(13.41,8.8181,0.75302));
#432=CARTESIAN_POINT('',(12.985,8.8181,1.30302));
#433=CARTESIAN_POINT('Origin',(13.41,8.8181,1.30302));
#434=CARTESIAN_POINT('Origin',(13.41,8.8181,0.75302));
#435=CARTESIAN_POINT('',(13.155,8.8181,0.75302));
#436=CARTESIAN_POINT('Origin',(13.41,8.8181,0.75302));
#437=CARTESIAN_POINT('Origin',(1.83,2.8181,1.30302));
#438=CARTESIAN_POINT('',(1.405,2.8181,0.75302));
#439=CARTESIAN_POINT('Origin',(1.83,2.8181,0.75302));
#440=CARTESIAN_POINT('',(1.405,2.8181,1.30302));
#441=CARTESIAN_POINT('Origin',(1.83,2.8181,1.30302));
#442=CARTESIAN_POINT('Origin',(1.83,2.8181,0.75302));
#443=CARTESIAN_POINT('',(1.575,2.8181,0.75302));
#444=CARTESIAN_POINT('Origin',(1.83,2.8181,0.75302));
#445=CARTESIAN_POINT('Origin',(1.83,8.8181,1.30302));
#446=CARTESIAN_POINT('',(1.405,8.8181,0.75302));
#447=CARTESIAN_POINT('Origin',(1.83,8.8181,0.75302));
#448=CARTESIAN_POINT('',(1.405,8.8181,1.30302));
#449=CARTESIAN_POINT('Origin',(1.83,8.8181,1.30302));
#450=CARTESIAN_POINT('Origin',(1.83,8.8181,0.75302));
#451=CARTESIAN_POINT('',(1.575,8.8181,0.75302));
#452=CARTESIAN_POINT('Origin',(1.83,8.8181,0.75302));
#453=CARTESIAN_POINT('Origin',(13.41,8.8181,1.30302));
#454=CARTESIAN_POINT('',(13.155,8.8181,0.));
#455=CARTESIAN_POINT('Origin',(13.41,8.8181,0.));
#456=CARTESIAN_POINT('Origin',(1.83,2.8181,1.30302));
#457=CARTESIAN_POINT('',(1.575,2.8181,0.));
#458=CARTESIAN_POINT('Origin',(1.83,2.8181,0.));
#459=CARTESIAN_POINT('Origin',(13.41,2.8181,1.30302));
#460=CARTESIAN_POINT('',(13.155,2.8181,0.));
#461=CARTESIAN_POINT('Origin',(13.41,2.8181,0.));
#462=CARTESIAN_POINT('Origin',(1.83,8.8181,1.30302));
#463=CARTESIAN_POINT('',(1.575,8.8181,0.));
#464=CARTESIAN_POINT('Origin',(1.83,8.8181,0.));
#465=CARTESIAN_POINT('Origin',(7.62,5.1181,1.30302));
#466=CARTESIAN_POINT('Origin',(7.62,5.1181,0.));
#467=UNCERTAINTY_MEASURE_WITH_UNIT(LENGTH_MEASURE(0.001),#473,
'DISTANCE_ACCURACY_VALUE',
'Maximum model space distance between geometric entities at asserted c
onnectivities');
#468=UNCERTAINTY_MEASURE_WITH_UNIT(LENGTH_MEASURE(1.E-6),#474,
'DISTANCE_ACCURACY_VALUE',
'Maximum model space distance between geometric entities at asserted c
onnectivities');
#469=(
GEOMETRIC_REPRESENTATION_CONTEXT(3)
GLOBAL_UNCERTAINTY_ASSIGNED_CONTEXT((#467))
GLOBAL_UNIT_ASSIGNED_CONTEXT((#473,#472,#471))
REPRESENTATION_CONTEXT('','3D')
);
#470=(
GEOMETRIC_REPRESENTATION_CONTEXT(3)
GLOBAL_UNCERTAINTY_ASSIGNED_CONTEXT((#468))
GLOBAL_UNIT_ASSIGNED_CONTEXT((#474,#12,#471))
REPRESENTATION_CONTEXT('','3D')
);
#471=(
NAMED_UNIT(*)
SI_UNIT($,.STERADIAN.)
SOLID_ANGLE_UNIT()
);
#472=(
NAMED_UNIT(*)
PLANE_ANGLE_UNIT()
SI_UNIT($,.RADIAN.)
);
#473=(
LENGTH_UNIT()
NAMED_UNIT(*)
SI_UNIT(.CENTI.,.METRE.)
);
#474=(
LENGTH_UNIT()
NAMED_UNIT(*)
SI_UNIT(.MILLI.,.METRE.)
);
#475=SHAPE_DEFINITION_REPRESENTATION(#476,#477);
#476=PRODUCT_DEFINITION_SHAPE('',$,#479);
#477=SHAPE_REPRESENTATION('',(#279),#469);
#478=PRODUCT_DEFINITION_CONTEXT('part definition',#483,'design');
#479=PRODUCT_DEFINITION('BedStockNominalLarge v7 v4',
'BedStockNominalLarge v7 v4',#480,#478);
#480=PRODUCT_DEFINITION_FORMATION('',$,#485);
#481=PRODUCT_RELATED_PRODUCT_CATEGORY('BedStockNominalLarge v7 v4',
'BedStockNominalLarge v7 v4',(#485));
#482=APPLICATION_PROTOCOL_DEFINITION('international standard',
'automotive_design',2009,#483);
#483=APPLICATION_CONTEXT(
'Core Data for Automotive Mechanical Design Process');
#484=PRODUCT_CONTEXT('part definition',#483,'mechanical');
#485=PRODUCT('BedStockNominalLarge v7 v4','BedStockNominalLarge v7 v4',
$,(#484));
#486=PRESENTATION_STYLE_ASSIGNMENT((#488));
#487=PRESENTATION_STYLE_ASSIGNMENT((#489));
#488=SURFACE_STYLE_USAGE(.BOTH.,#490);
#489=SURFACE_STYLE_USAGE(.BOTH.,#491);
#490=SURFACE_SIDE_STYLE('',(#492));
#491=SURFACE_SIDE_STYLE('',(#493));
#492=SURFACE_STYLE_FILL_AREA(#494);
#493=SURFACE_STYLE_FILL_AREA(#495);
#494=FILL_AREA_STYLE('Acetal Resin (White)',(#496));
#495=FILL_AREA_STYLE('Steel - Satin',(#497));
#496=FILL_AREA_STYLE_COLOUR('Acetal Resin (White)',#498);
#497=FILL_AREA_STYLE_COLOUR('Steel - Satin',#499);
#498=COLOUR_RGB('Acetal Resin (White)',0.972549019607843,0.968627450980392,
0.929411764705882);
#499=COLOUR_RGB('Steel - Satin',0.627450980392157,0.627450980392157,0.627450980392157);
ENDSEC;
END-ISO-10303-21;
